  0
SECTION
  2
HEADER
  9
$ACADVER
  1
AC1015
  9
$ACADMAINTVER
 70
6
  9
$DWGCODEPAGE
  3
ANSI_1252
  9
$INSBASE
 10
0.0
 20
0.0
 30
0.0
  9
$EXTMIN
 10
1e+20
 20
1e+20
 30
1e+20
  9
$EXTMAX
 10
-1e+20
 20
-1e+20
 30
-1e+20
  9
$LIMMIN
 10
0.0
 20
0.0
  9
$LIMMAX
 10
420.0
 20
297.0
  9
$ORTHOMODE
 70
0
  9
$REGENMODE
 70
1
  9
$FILLMODE
 70
1
  9
$QTEXTMODE
 70
0
  9
$MIRRTEXT
 70
1
  9
$LTSCALE
 40
1.0
  9
$ATTMODE
 70
1
  9
$TEXTSIZE
 40
2.5
  9
$TRACEWID
 40
1.0
  9
$TEXTSTYLE
  7
Standard
  9
$CLAYER
  8
0
  9
$CELTYPE
  6
ByLayer
  9
$CECOLOR
 62
256
  9
$CELTSCALE
 40
1.0
  9
$DISPSILH
 70
0
  9
$DIMSCALE
 40
1.0
  9
$DIMASZ
 40
2.5
  9
$DIMEXO
 40
0.625
  9
$DIMDLI
 40
3.75
  9
$DIMRND
 40
0.0
  9
$DIMDLE
 40
0.0
  9
$DIMEXE
 40
1.25
  9
$DIMTP
 40
0.0
  9
$DIMTM
 40
0.0
  9
$DIMTXT
 40
2.5
  9
$DIMCEN
 40
2.5
  9
$DIMTSZ
 40
0.0
  9
$DIMTOL
 70
0
  9
$DIMLIM
 70
0
  9
$DIMTIH
 70
0
  9
$DIMTOH
 70
0
  9
$DIMSE1
 70
0
  9
$DIMSE2
 70
0
  9
$DIMTAD
 70
1
  9
$DIMZIN
 70
8
  9
$DIMBLK
  1

  9
$DIMASO
 70
1
  9
$DIMSHO
 70
1
  9
$DIMPOST
  1

  9
$DIMAPOST
  1

  9
$DIMALT
 70
0
  9
$DIMALTD
 70
3
  9
$DIMALTF
 40
0.03937007874
  9
$DIMLFAC
 40
1.0
  9
$DIMTOFL
 70
1
  9
$DIMTVP
 40
0.0
  9
$DIMTIX
 70
0
  9
$DIMSOXD
 70
0
  9
$DIMSAH
 70
0
  9
$DIMBLK1
  1

  9
$DIMBLK2
  1

  9
$DIMSTYLE
  2
ISO-25
  9
$DIMCLRD
 70
0
  9
$DIMCLRE
 70
0
  9
$DIMCLRT
 70
0
  9
$DIMTFAC
 40
1.0
  9
$DIMGAP
 40
0.625
  9
$DIMJUST
 70
0
  9
$DIMSD1
 70
0
  9
$DIMSD2
 70
0
  9
$DIMTOLJ
 70
0
  9
$DIMTZIN
 70
8
  9
$DIMALTZ
 70
0
  9
$DIMALTTZ
 70
0
  9
$DIMUPT
 70
0
  9
$DIMDEC
 70
2
  9
$DIMTDEC
 70
2
  9
$DIMALTU
 70
2
  9
$DIMALTTD
 70
3
  9
$DIMTXSTY
  7
Standard
  9
$DIMAUNIT
 70
0
  9
$DIMADEC
 70
0
  9
$DIMALTRND
 40
0.0
  9
$DIMAZIN
 70
0
  9
$DIMDSEP
 70
44
  9
$DIMATFIT
 70
3
  9
$DIMFRAC
 70
0
  9
$DIMLDRBLK
  1

  9
$DIMLUNIT
 70
2
  9
$DIMLWD
 70
-2
  9
$DIMLWE
 70
-2
  9
$DIMTMOVE
 70
0
  9
$LUNITS
 70
2
  9
$LUPREC
 70
4
  9
$SKETCHINC
 40
1.0
  9
$FILLETRAD
 40
10.0
  9
$AUNITS
 70
0
  9
$AUPREC
 70
2
  9
$MENU
  1
.
  9
$ELEVATION
 40
0.0
  9
$PELEVATION
 40
0.0
  9
$THICKNESS
 40
0.0
  9
$LIMCHECK
 70
0
  9
$CHAMFERA
 40
0.0
  9
$CHAMFERB
 40
0.0
  9
$CHAMFERC
 40
0.0
  9
$CHAMFERD
 40
0.0
  9
$SKPOLY
 70
0
  9
$TDCREATE
 40
2461072.8720601853
  9
$TDUCREATE
 40
2458532.153996898
  9
$TDUPDATE
 40
2461072.8720601853
  9
$TDUUPDATE
 40
2458532.1544311
  9
$TDINDWG
 40
0.0
  9
$TDUSRTIMER
 40
0.0
  9
$USRTIMER
 70
1
  9
$ANGBASE
 50
0.0
  9
$ANGDIR
 70
0
  9
$PDMODE
 70
0
  9
$PDSIZE
 40
0.0
  9
$PLINEWID
 40
0.0
  9
$SPLFRAME
 70
0
  9
$SPLINETYPE
 70
6
  9
$SPLINESEGS
 70
8
  9
$HANDSEED
  5
45
  9
$SURFTAB1
 70
6
  9
$SURFTAB2
 70
6
  9
$SURFTYPE
 70
6
  9
$SURFU
 70
6
  9
$SURFV
 70
6
  9
$UCSBASE
  2

  9
$UCSNAME
  2

  9
$UCSORG
 10
0.0
 20
0.0
 30
0.0
  9
$UCSXDIR
 10
1.0
 20
0.0
 30
0.0
  9
$UCSYDIR
 10
0.0
 20
1.0
 30
0.0
  9
$UCSORTHOREF
  2

  9
$UCSORTHOVIEW
 70
0
  9
$UCSORGTOP
 10
0.0
 20
0.0
 30
0.0
  9
$UCSORGBOTTOM
 10
0.0
 20
0.0
 30
0.0
  9
$UCSORGLEFT
 10
0.0
 20
0.0
 30
0.0
  9
$UCSORGRIGHT
 10
0.0
 20
0.0
 30
0.0
  9
$UCSORGFRONT
 10
0.0
 20
0.0
 30
0.0
  9
$UCSORGBACK
 10
0.0
 20
0.0
 30
0.0
  9
$PUCSBASE
  2

  9
$PUCSNAME
  2

  9
$PUCSORG
 10
0.0
 20
0.0
 30
0.0
  9
$PUCSXDIR
 10
1.0
 20
0.0
 30
0.0
  9
$PUCSYDIR
 10
0.0
 20
1.0
 30
0.0
  9
$PUCSORTHOREF
  2

  9
$PUCSORTHOVIEW
 70
0
  9
$PUCSORGTOP
 10
0.0
 20
0.0
 30
0.0
  9
$PUCSORGBOTTOM
 10
0.0
 20
0.0
 30
0.0
  9
$PUCSORGLEFT
 10
0.0
 20
0.0
 30
0.0
  9
$PUCSORGRIGHT
 10
0.0
 20
0.0
 30
0.0
  9
$PUCSORGFRONT
 10
0.0
 20
0.0
 30
0.0
  9
$PUCSORGBACK
 10
0.0
 20
0.0
 30
0.0
  9
$USERI1
 70
0
  9
$USERI2
 70
0
  9
$USERI3
 70
0
  9
$USERI4
 70
0
  9
$USERI5
 70
0
  9
$USERR1
 40
0.0
  9
$USERR2
 40
0.0
  9
$USERR3
 40
0.0
  9
$USERR4
 40
0.0
  9
$USERR5
 40
0.0
  9
$WORLDVIEW
 70
1
  9
$SHADEDGE
 70
3
  9
$SHADEDIF
 70
70
  9
$TILEMODE
 70
1
  9
$MAXACTVP
 70
64
  9
$PINSBASE
 10
0.0
 20
0.0
 30
0.0
  9
$PLIMCHECK
 70
0
  9
$PEXTMIN
 10
1e+20
 20
1e+20
 30
1e+20
  9
$PEXTMAX
 10
-1e+20
 20
-1e+20
 30
-1e+20
  9
$PLIMMIN
 10
0.0
 20
0.0
  9
$PLIMMAX
 10
420.0
 20
297.0
  9
$UNITMODE
 70
0
  9
$VISRETAIN
 70
1
  9
$PLINEGEN
 70
0
  9
$PSLTSCALE
 70
1
  9
$TREEDEPTH
 70
3020
  9
$CMLSTYLE
  2
Standard
  9
$CMLJUST
 70
0
  9
$CMLSCALE
 40
20.0
  9
$PROXYGRAPHICS
 70
1
  9
$MEASUREMENT
 70
1
  9
$CELWEIGHT
370
-1
  9
$ENDCAPS
280
0
  9
$JOINSTYLE
280
0
  9
$LWDISPLAY
290
0
  9
$INSUNITS
 70
6
  9
$HYPERLINKBASE
  1

  9
$STYLESHEET
  1

  9
$XEDIT
290
1
  9
$CEPSNTYPE
380
0
  9
$PSTYLEMODE
290
1
  9
$FINGERPRINTGUID
  2
{B09C7D98-1CDD-4C4B-8312-72B82F8404A9}
  9
$VERSIONGUID
  2
{973BD144-3D5E-444E-92D3-9733503BC306}
  9
$EXTNAMES
290
1
  9
$PSVPSCALE
 40
0.0
  9
$OLESTARTUP
290
0
  0
ENDSEC
  0
SECTION
  2
CLASSES
  0
CLASS
  1
ACDBDICTIONARYWDFLT
  2
AcDbDictionaryWithDefault
  3
ObjectDBX Classes
 90
0
280
0
281
0
  0
CLASS
  1
SUN
  2
AcDbSun
  3
SCENEOE
 90
1153
280
0
281
0
  0
CLASS
  1
VISUALSTYLE
  2
AcDbVisualStyle
  3
ObjectDBX Classes
 90
4095
280
0
281
0
  0
CLASS
  1
MATERIAL
  2
AcDbMaterial
  3
ObjectDBX Classes
 90
1153
280
0
281
0
  0
CLASS
  1
SCALE
  2
AcDbScale
  3
ObjectDBX Classes
 90
1153
280
0
281
0
  0
CLASS
  1
TABLESTYLE
  2
AcDbTableStyle
  3
ObjectDBX Classes
 90
4095
280
0
281
0
  0
CLASS
  1
MLEADERSTYLE
  2
AcDbMLeaderStyle
  3
ACDB_MLEADERSTYLE_CLASS
 90
4095
280
0
281
0
  0
CLASS
  1
DICTIONARYVAR
  2
AcDbDictionaryVar
  3
ObjectDBX Classes
 90
0
280
0
281
0
  0
CLASS
  1
CELLSTYLEMAP
  2
AcDbCellStyleMap
  3
ObjectDBX Classes
 90
1152
280
0
281
0
  0
CLASS
  1
MENTALRAYRENDERSETTINGS
  2
AcDbMentalRayRenderSettings
  3
SCENEOE
 90
1024
280
0
281
0
  0
CLASS
  1
ACDBDETAILVIEWSTYLE
  2
AcDbDetailViewStyle
  3
ObjectDBX Classes
 90
1025
280
0
281
0
  0
CLASS
  1
ACDBSECTIONVIEWSTYLE
  2
AcDbSectionViewStyle
  3
ObjectDBX Classes
 90
1025
280
0
281
0
  0
CLASS
  1
RASTERVARIABLES
  2
AcDbRasterVariables
  3
ISM
 90
0
280
0
281
0
  0
CLASS
  1
ACDBPLACEHOLDER
  2
AcDbPlaceHolder
  3
ObjectDBX Classes
 90
0
280
0
281
0
  0
CLASS
  1
LAYOUT
  2
AcDbLayout
  3
ObjectDBX Classes
 90
0
280
0
281
0
  0
ENDSEC
  0
SECTION
  2
TABLES
  0
TABLE
  2
VPORT
  5
8
330
0
100
AcDbSymbolTable
 70
1
  0
VPORT
  5
23
330
8
100
AcDbSymbolTableRecord
100
AcDbViewportTableRecord
  2
*Active
 70
0
 10
0.0
 20
0.0
 11
1.0
 21
1.0
 12
0.0
 22
0.0
 13
0.0
 23
0.0
 14
0.5
 24
0.5
 15
0.5
 25
0.5
 16
0.0
 26
0.0
 36
1.0
 17
0.0
 27
0.0
 37
0.0
 40
1000.0
 41
1.34
 42
50.0
 43
0.0
 44
0.0
 50
0.0
 51
0.0
 71
0
 72
1000
 73
1
 74
3
 75
0
 76
0
 77
0
 78
0
281
0
 65
0
146
0.0
  0
ENDTAB
  0
TABLE
  2
LTYPE
  5
2
330
0
100
AcDbSymbolTable
 70
3
  0
LTYPE
  5
24
330
2
100
AcDbSymbolTableRecord
100
AcDbLinetypeTableRecord
  2
ByBlock
 70
0
  3

 72
65
 73
0
 40
0.0
  0
LTYPE
  5
25
330
2
100
AcDbSymbolTableRecord
100
AcDbLinetypeTableRecord
  2
ByLayer
 70
0
  3

 72
65
 73
0
 40
0.0
  0
LTYPE
  5
26
330
2
100
AcDbSymbolTableRecord
100
AcDbLinetypeTableRecord
  2
Continuous
 70
0
  3

 72
65
 73
0
 40
0.0
  0
ENDTAB
  0
TABLE
  2
LAYER
  5
1
330
0
100
AcDbSymbolTable
 70
2
  0
LAYER
  5
27
330
1
100
AcDbSymbolTableRecord
100
AcDbLayerTableRecord
  2
0
 70
0
 62
7
  6
Continuous
370
-3
390
13
  0
LAYER
  5
28
330
1
100
AcDbSymbolTableRecord
100
AcDbLayerTableRecord
  2
Defpoints
 70
0
 62
7
  6
Continuous
290
0
370
-3
390
13
  0
ENDTAB
  0
TABLE
  2
STYLE
  5
5
330
0
100
AcDbSymbolTable
 70
1
  0
STYLE
  5
29
330
5
100
AcDbSymbolTableRecord
100
AcDbTextStyleTableRecord
  2
Standard
 70
0
 40
0.0
 41
1.0
 50
0.0
 71
0
 42
2.5
  3
txt
  4

  0
ENDTAB
  0
TABLE
  2
VIEW
  5
7
330
0
100
AcDbSymbolTable
 70
0
  0
ENDTAB
  0
TABLE
  2
UCS
  5
6
330
0
100
AcDbSymbolTable
 70
0
  0
ENDTAB
  0
TABLE
  2
APPID
  5
3
330
0
100
AcDbSymbolTable
 70
3
  0
APPID
  5
2A
330
3
100
AcDbSymbolTableRecord
100
AcDbRegAppTableRecord
  2
ACAD
 70
0
  0
APPID
  5
42
330
3
100
AcDbSymbolTableRecord
100
AcDbRegAppTableRecord
  2
HATCHBACKGROUNDCOLOR
 70
0
  0
APPID
  5
43
330
3
100
AcDbSymbolTableRecord
100
AcDbRegAppTableRecord
  2
EZDXF
 70
0
  0
ENDTAB
  0
TABLE
  2
DIMSTYLE
  5
4
330
0
100
AcDbSymbolTable
 70
1
100
AcDbDimStyleTable
  0
DIMSTYLE
105
2B
330
4
100
AcDbSymbolTableRecord
100
AcDbDimStyleTableRecord
  2
Standard
 70
0
  3

  4

 40
1.0
 41
2.5
 42
0.625
 43
3.75
 44
1.25
 45
0.0
 46
0.0
 47
0.0
 48
0.0
140
2.5
141
2.5
142
0.0
143
0.03937007874
144
1.0
145
0.0
146
1.0
147
0.625
148
0.0
 71
0
 72
0
 73
0
 74
0
 75
0
 76
0
 77
1
 78
8
 79
3
170
0
171
3
172
1
173
0
174
0
175
0
176
0
177
0
178
0
179
2
271
2
272
2
273
2
274
3
275
0
276
0
277
2
278
44
279
0
280
0
281
0
282
0
283
0
284
8
285
0
286
0
288
0
289
3
371
-2
372
-2
  0
ENDTAB
  0
TABLE
  2
BLOCK_RECORD
  5
9
330
0
100
AcDbSymbolTable
 70
2
  0
BLOCK_RECORD
  5
17
330
9
100
AcDbSymbolTableRecord
100
AcDbBlockTableRecord
  2
*Model_Space
340
1A
  0
BLOCK_RECORD
  5
1B
330
9
100
AcDbSymbolTableRecord
100
AcDbBlockTableRecord
  2
*Paper_Space
340
1E
  0
ENDTAB
  0
ENDSEC
  0
SECTION
  2
BLOCKS
  0
BLOCK
  5
18
330
17
100
AcDbEntity
  8
0
100
AcDbBlockBegin
  2
*Model_Space
 70
0
 10
0.0
 20
0.0
 30
0.0
  3
*Model_Space
  1

  0
ENDBLK
  5
19
330
17
100
AcDbEntity
  8
0
100
AcDbBlockEnd
  0
BLOCK
  5
1C
330
1B
100
AcDbEntity
  8
0
100
AcDbBlockBegin
  2
*Paper_Space
 70
0
 10
0.0
 20
0.0
 30
0.0
  3
*Paper_Space
  1

  0
ENDBLK
  5
1D
330
1B
100
AcDbEntity
  8
0
100
AcDbBlockEnd
  0
ENDSEC
  0
SECTION
  2
ENTITIES
  0
LWPOLYLINE
  5
2F
330
17
100
AcDbEntity
  8
OVERLAY_FOAM_BOUNDARY
 62
7
100
AcDbPolyline
 90
5
 70
0
 10
0.0
 20
0.0
 10
595.0
 20
0.0
 10
595.0
 20
365.0
 10
0.0
 20
365.0
 10
0.0
 20
0.0
  0
LWPOLYLINE
  5
30
330
17
100
AcDbEntity
  8
OVERLAY_FOAM_S24A Main Strut 4 S24A Orient_1_part1
 62
1
100
AcDbPolyline
 90
38
 70
1
 10
270.93767941796705
 20
291.55752116368063
 10
271.7640875498064
 20
298.3541533358311
 42
-0.2499657566632356
 10
273.7886154087106
 20
301.2453279742773
 10
274.0310180751761
 20
301.3684644451563
 42
-0.12088919188206516
 10
277.8140166115816
 20
302.2518461542762
 10
354.93589374303264
 20
301.3874360722863
 42
-0.12207805304631994
 10
358.69369147584047
 20
300.4112359223644
 10
360.2517906724671
 20
299.565868359501
 42
-0.2201670557618012
 10
360.9284133911133
 20
298.65758895874023
 42
-0.04866413438658177
 10
361.06426358768243
 20
297.4229381075969
 10
361.4597473144531
 20
265.3727111816406
 10
360.1979661254912
 20
215.56529367268445
 42
-0.24577018125035593
 10
358.47602970773056
 20
212.4673896422233
 10
357.7333666545741
 20
211.97923320628743
 42
-0.1489594731988927
 10
354.0621802815622
 20
210.90067728755372
 10
339.292612057886
 20
211.0483033493128
 10
324.4823303222656
 20
209.62775421142578
 10
311.6266140763694
 20
210.3478334522894
 42
-0.06902786017438492
 10
308.9884796142578
 20
210.8655776977539
 42
0.10851715895365824
 10
306.355102934803
 20
211.1709315361873
 10
304.79691090346336
 20
211.01341246778506
 42
-0.04861151200021514
 10
300.8157967963702
 20
210.99907201367384
 10
297.09879225622166
 20
211.3477949091176
 42
0.07631781514990149
 10
293.44593285358457
 20
211.13277400025265
 42
-0.07385426513144513
 10
289.79146770772513
 20
210.89968624484496
 10
280.9997377544273
 20
211.6376800938632
 42
0.13799139357746862
 10
279.20297329638686
 20
211.29118503728336
 42
-0.1847457900699366
 10
277.4363021838291
 20
211.11502544706846
 10
276.1451304677046
 20
211.46679650905133
 42
-0.07154369421246348
 10
272.71224880218506
 20
212.95406818389893
 10
271.6833352789993
 20
213.58727514122864
 42
-0.21221967993593316
 10
270.97893619537354
 20
214.61493682861328
 10
270.875763122182
 20
215.17350285796263
 42
-0.08101437004158059
 10
270.87105593740387
 20
215.39787492656035
 10
270.88699979900207
 20
215.5104448299273
 10
270.78458404541016
 20
259.7355041503906
 10
271.5879091443134
 20
280.8553621352993
 10
270.89979236571173
 20
287.5825252568024
 42
-0.055790686646490985
  0
LWPOLYLINE
  5
31
330
17
100
AcDbEntity
  8
OVERLAY_FOAM_S24A Main Strut 4 S24A Orient_1_part2
 62
2
100
AcDbPolyline
 90
24
 70
1
 10
274.5474319458008
 20
172.51722478866577
 42
-0.10228323448450546
 10
275.7207688139305
 20
173.79359695160778
 10
301.9930753707886
 20
192.69183254241943
 10
304.8087965073808
 20
194.3128001165206
 42
-0.07018569625134559
 10
307.8359169960022
 20
195.52962446212769
 42
-0.07872824363921835
 10
311.0784290592096
 20
195.80568536992354
 10
313.55366093368036
 20
195.62666438298973
 42
-0.07820804150331796
 10
317.4025007428307
 20
194.73239296695166
 10
318.81940210445936
 20
194.1592295763833
 42
-0.05953992789198516
 10
322.2985616161307
 20
192.2434610705259
 10
348.4527948961585
 20
173.48175396767203
 42
-0.11639587610733451
 10
349.61938667297363
 20
172.1429581642151
 42
-0.16795929134195647
 10
349.8808502385358
 20
170.43847949245017
 10
346.42587851008886
 20
151.51648141825387
 42
-0.06071631802706117
 10
345.6373882293701
 20
148.98441791534424
 42
-0.340369321539505
 10
343.7710936769478
 20
147.98538600770647
 10
329.32665634155273
 20
150.38538932800293
 10
314.8856449127197
 20
151.26176834106445
 10
297.26629161834717
 20
150.93156242370605
 10
279.9581323462674
 20
149.05120962486617
 42
-0.3927282662791995
 10
277.6075942904708
 20
150.80212379067066
 10
274.8164978027344
 20
165.95758247375488
 10
274.62477572275054
 20
167.39371700749606
 10
274.199828680894
 20
170.87906558101764
 42
-0.16672717544697735
  0
LWPOLYLINE
  5
32
330
17
100
AcDbEntity
  8
OVERLAY_FOAM_S24A Main Strut 4 S24A Orient_1_part3
 62
3
100
AcDbPolyline
 90
21
 70
1
 10
389.69775498553116
 20
291.4270794075125
 10
392.1562336619298
 20
293.98108557051484
 42
-0.17536681117210323
 10
395.53114516320466
 20
295.6416405562393
 10
397.38748734411956
 20
295.8467551346787
 42
-0.04583233856013045
 10
401.37004003540767
 20
295.92022949955333
 10
405.9325573556951
 20
295.58586826190344
 10
481.1864013671875
 20
297.02596282958984
 10
485.1588844816436
 20
296.79569279126247
 42
-0.17612307562310087
 10
488.611744028337
 20
295.30902456488826
 10
490.5594901025224
 20
293.475345857475
 42
-0.19960234874062555
 10
492.0706973734224
 20
290.105172178736
 10
492.73226588341356
 20
266.0555181288812
 42
-0.18363505929192056
 10
491.5004408368835
 20
262.5252318314863
 10
489.741624592804
 20
260.43261576372856
 42
-0.21645427609891713
 10
486.4551716377556
 20
258.86319938429756
 10
398.54605865478516
 20
257.17618560791016
 10
395.49181367813617
 20
257.46930991428087
 42
-0.1753481611921737
 10
392.09328993808964
 20
259.0811031361969
 10
388.85523731349673
 20
262.3491843656379
 10
388.8414001464844
 20
262.36431884765625
 10
388.3491609774652
 20
287.98654451338075
 42
-0.1989522472257008
  0
LWPOLYLINE
  5
33
330
17
100
AcDbEntity
  8
OVERLAY_FOAM_S24A Main Strut 4 S24A Orient_1_part4
 62
4
100
AcDbPolyline
 90
16
 70
1
 10
264.4878749847412
 20
347.5252151489258
 42
-0.22112855734748715
 10
267.46657192464517
 20
348.98574952545266
 10
301.5831413269043
 20
349.68953704833984
 10
370.5311256419446
 20
349.23484590867855
 42
-0.3938444713026941
 10
372.6578912869151
 20
347.22568098692864
 10
373.31121826171875
 20
336.9423141479492
 10
372.93456175836
 20
321.0344631130203
 42
-0.09548293441093873
 10
372.2614517211914
 20
317.93817138671875
 42
-0.2994682067850527
 10
370.0130786247645
 20
316.4509011175078
 10
270.96948051452637
 20
316.2061996459961
 10
266.2813193610889
 20
316.4120632738462
 42
-0.3229720597422101
 10
263.77617835998535
 20
318.3913803100586
 10
263.74409231808335
 20
318.50409650586363
 42
-0.06629305002724833
 10
263.2141056060791
 20
322.13519287109375
 10
263.19089126586914
 20
323.9860305786133
 10
263.3259211209959
 20
344.27314219984606
 42
-0.16985797563248362
  0
LWPOLYLINE
  5
34
330
17
100
AcDbEntity
  8
OVERLAY_FOAM_S24A Main Strut 4 S24A Orient_1_part5
 62
5
100
AcDbPolyline
 90
22
 70
1
 10
389.824616124462
 20
346.05483176702376
 10
392.09519146830144
 20
348.3660800263954
 42
-0.11514560269646945
 10
393.9158058166504
 20
349.5202178955078
 42
-0.08415061372086817
 10
396.0675636821919
 20
349.88472444837004
 10
485.5177764991073
 20
349.8758469879539
 42
-0.20308879401522767
 10
488.9089581466433
 20
348.4387721655982
 10
491.11174803011454
 20
346.1636295678002
 42
-0.19344694113546584
 10
492.5127201559165
 20
342.7267771983248
 10
492.56712341308594
 20
331.61339569091797
 10
492.07098537151694
 20
318.92716033658473
 42
-0.18486775287699037
 10
490.6001214317952
 20
315.49329006037055
 10
488.246358707557
 20
313.0673767614342
 42
-0.14478800220912308
 10
486.2314453125
 20
311.9325942993164
 42
-0.05555580656681889
 10
483.8504135802968
 20
311.6591552961173
 10
395.9986528009501
 20
311.36554060805383
 42
-0.07410191349838025
 10
393.80395889282227
 20
311.6851043701172
 42
-0.12457875352719118
 10
391.93993252638984
 20
312.80348385421263
 10
389.67876285769046
 20
315.0777492568927
 42
-0.1924328335223788
 10
388.2244924130117
 20
318.4955530631819
 10
388.126220703125
 20
322.94657135009766
 10
388.1275349520949
 20
323.2335149722476
 10
388.3953927939608
 20
342.6283111335505
 42
-0.19302286385546777
  0
LWPOLYLINE
  5
35
330
17
100
AcDbEntity
  8
OVERLAY_FOAM_S24A Main Strut 4 S24A Orient_1_part6
 62
6
100
AcDbPolyline
 90
60
 70
1
 10
365.767350815392
 20
112.79155067002245
 10
366.59879414030513
 20
181.68881288561855
 42
0.11036891872041651
 10
366.18718338012695
 20
183.6412082016468
 42
-0.12729548641733102
 10
365.84373771047933
 20
185.59050339592537
 10
366.3627973787736
 20
192.1614620789562
 42
-0.0877763314036292
 10
367.15155029296875
 20
195.2005534172058
 42
-0.05923926205083145
 10
368.79941578536443
 20
197.9041777213658
 10
377.63681194451294
 20
209.15760309125918
 42
0.17173457735491407
 10
378.842890917151
 20
212.73033807129752
 10
378.8037573917525
 20
215.41335353598703
 42
0.1080528721526955
 10
378.3628686666769
 20
217.29756917012315
 10
378.3069533884714
 20
217.41477785445338
 42
-0.26507509876284496
 10
378.41615823734344
 20
218.9059015855122
 42
0.14544245213535534
 10
378.90761167636737
 20
220.48080069413007
 10
379.00357712989484
 20
227.52682913756306
 42
-0.06765159174538918
 10
379.41929626464844
 20
230.30157470703125
 10
379.52992153688535
 20
230.68083383022636
 42
-0.347613352398171
 10
380.83509063720703
 20
231.60845184326172
 10
381.1933899373784
 20
231.59008890021204
 42
-0.23088948722352567
 10
382.2346923172687
 20
231.01440099859977
 42
0.23629847163714196
 10
383.2765506084029
 20
230.45228177279552
 10
391.7865295410156
 20
230.19103622436523
 10
431.6921549413688
 20
230.35199838449205
 42
-0.4032416797157871
 10
433.7753919528787
 20
228.3617989886848
 10
435.0379180908203
 20
198.05832481384277
 10
433.95225792029225
 20
187.36018259825016
 10
433.9909800352086
 20
146.80008606367488
 42
-0.05246099447647915
 10
433.5785185054359
 20
142.84348360236797
 10
433.1276124760094
 20
140.71436628166524
 42
-0.3518868911497559
 10
430.7133169193913
 20
138.74040309053254
 10
371.55746314046957
 20
138.22691630737123
 42
0.4086795846334879
 10
369.53703671715664
 20
136.20966157232658
 10
369.48780017681645
 20
131.40676269655015
 42
0.08722136546060882
 10
369.99298919404805
 20
128.34928825050577
 42
-0.13994306927826367
 10
370.17342829350883
 20
125.32910472291165
 10
369.6067421987973
 20
122.77585589274145
 42
0.05860128396614629
 10
369.204853226161
 20
118.82361552035006
 10
369.2767370448351
 20
114.25432255948392
 42
0.06068579107803205
 10
369.81883278901586
 20
110.32085567658207
 10
370.0280071157693
 20
109.52873843962887
 42
0.10929156813760688
 10
371.81728427557135
 20
106.05714368766652
 10
377.22537166925287
 20
99.55258989387644
 42
-0.06655946644981216
 10
379.3336963593889
 20
96.19492222540917
 10
379.65479851365797
 20
95.49063227898536
 42
-0.0848716005530232
 10
380.6624341394672
 20
91.67877752058827
 10
381.59300561883356
 20
81.26159876115001
 42
-0.051269968129749564
 10
381.5398623405421
 20
77.2829274090748
 10
380.98934311422926
 20
72.5504116018165
 42
-0.19270762181632167
 10
380.4153175354004
 20
71.49100494384766
 42
-0.19389060867078925
 10
379.2690472576614
 20
71.12323457003889
 10
378.6549605314723
 20
71.16787296101398
 42
-0.307572693433387
 10
377.6564750671387
 20
71.95785903930664
 42
-0.07832050816030099
 10
377.4317314368283
 20
73.46165654780467
 10
377.57141073007875
 20
90.98870333916912
 42
0.17226108334628015
 10
376.3385250624965
 20
94.55083025783603
 10
366.97865295410156
 20
106.25936889648438
 10
365.7250753356229
 20
108.32169402655158
 42
-0.13408098503735313
 10
365.2276153564453
 20
110.05429077148438
 10
365.22380056188
 20
110.34715697494447
 42
-0.11325512942356356
 10
365.48752871345425
 20
111.56934996918028
 42
0.10690602544905373
  0
LWPOLYLINE
  5
36
330
17
100
AcDbEntity
  8
OVERLAY_FOAM_S24A Main Strut 4 S24A Orient_1_part7
 62
1
100
AcDbPolyline
 90
96
 70
1
 10
395.68859554063187
 20
64.08448308446127
 10
396.1215019226074
 20
64.68211364746094
 42
0.10541271798462262
 10
397.0351552155578
 20
66.74549073853161
 10
397.18833743328145
 20
67.47564027386272
 42
-0.20807261454843462
 10
397.82722091674805
 20
68.37608337402344
 42
0.3079236905603287
 10
398.24215716654936
 20
69.28093139494143
 10
398.0164337158203
 20
70.6162109375
 42
-0.07069431792427719
 10
397.9145373088875
 20
74.48840208675587
 10
399.5022735595703
 20
88.25260925292969
 10
399.17908909817265
 20
116.16014920168578
 42
-0.09249536947538232
 10
399.8555185402497
 20
120.03366802665103
 10
400.1966741477386
 20
120.94735766914975
 42
-0.31025270276575373
 10
402.8961611174617
 20
122.84120984657817
 10
463.51175198480087
 20
123.45343602009142
 42
0.21837219888805012
 10
464.2658442717751
 20
123.80853462604364
 42
0.18274942946644593
 10
464.55123507519954
 20
124.61738461366397
 10
464.0254978678472
 20
148.17733792784628
 42
0.04688338970726383
 10
463.6394271850586
 20
151.49032306671143
 42
0.055375333568563785
 10
462.5909503169309
 20
154.65055117499412
 10
462.5675185441366
 20
154.7015107348908
 42
0.06847315740340369
 10
460.72320241704557
 20
157.5934192039932
 10
454.6945195778436
 20
164.68664046561963
 42
-0.10280343393917457
 10
452.81843537384754
 20
168.12437147217338
 10
451.8392184347462
 20
171.35067373198922
 42
-0.07089824987176646
 10
451.23525203443114
 20
175.26433371941727
 10
451.06337609557056
 20
190.13807546315206
 42
-0.3094704537285332
 10
452.2220153808594
 20
191.87344932556152
 10
452.7164513107652
 20
192.07200137791497
 42
-0.17360297855349247
 10
454.0928497314453
 20
192.12444257736206
 42
-0.20111408868035713
 10
455.1225257368162
 20
191.25251724424507
 10
455.61344146728516
 20
190.28902506828308
 42
-0.15476759026462017
 10
456.1781549661395
 20
186.8794044984151
 10
455.79058762258035
 20
184.1869760703042
 42
0.09312523281630933
 10
455.9585950835493
 20
180.25934973039455
 10
456.377662851021
 20
178.45709666929417
 42
-0.14940148042209753
 10
456.11718924607425
 20
174.64064272100575
 10
455.42032579637583
 20
172.81562694064942
 42
0.26358794377287664
 10
455.9428147906481
 20
169.3747901308515
 10
468.04419680000274
 20
153.97875733564607
 42
-0.2711795175983316
 10
468.1828155517578
 20
152.9697608947754
 42
0.18637105515504146
 10
468.1557581948947
 20
151.86916745330905
 10
468.44537353515625
 20
151.0605707168579
 42
-0.14152535688525444
 10
468.61996824500926
 20
148.2819062463853
 10
468.0042832477834
 20
145.5082175531281
 42
0.04460563009261622
 10
467.4906520058862
 20
141.55735058793084
 10
467.01468756202553
 20
129.7024008506096
 42
0.06983972875064948
 10
467.4028091430664
 20
125.80768966674805
 42
-0.05888655434560598
 10
467.8771334112066
 20
121.91139978921535
 10
467.9324859124032
 20
106.11481626072667
 42
0.15702729128220405
 10
468.34275150860447
 20
104.85581506118763
 42
-0.12034989513805314
 10
468.852754902066
 20
103.60435511830076
 10
469.49558918113945
 20
99.27573557023385
 42
-0.07170419841970971
 10
469.5124825422325
 20
95.31669315112765
 10
469.2688093982009
 20
93.57363729798034
 42
0.11844727131680213
 10
469.5552045435282
 20
90.62730563524231
 10
469.6619247605195
 20
90.31845452604487
 42
-0.19831170259739198
 10
469.5319470954778
 20
88.11229852981995
 42
0.07994266954196996
 10
468.8550287733149
 20
85.8508796958757
 10
468.32903031795934
 20
81.8678197870345
 42
0.07061391898549293
 10
468.35808697340343
 20
78.87073341753654
 10
468.38198376298277
 20
78.71335149611656
 42
0.12282730554090379
 10
469.39369201660156
 20
76.28749084472656
 10
469.8794775250172
 20
75.63441569125949
 42
-0.16277756637180288
 10
470.1988830566406
 20
74.66022872924805
 42
-0.20875980338998334
 10
469.79715707875584
 20
73.7545987146075
 10
469.216697133164
 20
73.2227960603611
 42
0.14330577354927068
 10
467.8966568350574
 20
71.04266053085898
 10
467.71427763990283
 20
70.3564441150372
 42
-0.08006770005311302
 10
466.1055865634864
 20
66.74991808993873
 10
463.29795837402344
 20
62.45856475830078
 10
456.3451464129407
 20
54.93335526354375
 42
0.27189146258630675
 10
455.9782110699218
 20
53.25253553387881
 42
0.3934516318520786
 10
457.2560658771801
 20
52.545976749677074
 10
457.8555942968997
 20
52.695624271717094
 42
-0.4425157829564395
 10
458.42325592041016
 20
52.316680908203125
 42
-0.15745467944938119
 10
458.2661545030034
 20
51.36373395388329
 10
456.30463326549807
 20
47.5564365277492
 42
0.11262320004572766
 10
455.3343952624768
 20
43.779258881674544
 10
455.082149175732
 20
34.48433320810397
 42
-0.4038124417968552
 10
453.0279654927287
 20
32.4680486978207
 10
404.9432740022548
 20
32.05881927934937
 42
0.0662673509462123
 10
402.2666290680438
 20
31.67929642508288
 10
401.6513117501241
 20
31.506885404802258
 42
-0.2813506443235215
 10
400.4612617492676
 20
31.84307861328125
 42
-0.18634160172938463
 10
399.9616870193131
 20
33.09935942064786
 10
399.8565701646512
 20
43.577542139327825
 42
0.04940077636688616
 10
399.42452931031914
 20
47.534550138188465
 10
399.12314861547327
 20
48.966264645364824
 42
-0.09255093427248667
 10
399.0405828799709
 20
52.57141304064943
 42
0.10346973402896023
 10
398.88075026779256
 20
56.1585429331482
 10
398.4535360614406
 20
57.82654467464483
 42
0.15764182116168918
 10
397.3875302006064
 20
59.51391105645793
 42
-0.2029877410589475
 10
396.50307110960125
 20
61.23111771419973
 10
396.3354797363281
 20
63.458885192871094
 10
396.2483596801758
 20
63.53466033935547
 10
395.84654235839844
 20
63.641239166259766
 42
-0.5264782057241492
  0
LWPOLYLINE
  5
37
330
17
100
AcDbEntity
  8
OVERLAY_FOAM_S24A Main Strut 4 S24A Orient_1_part8
 62
2
100
AcDbPolyline
 90
34
 70
1
 10
540.8829937104033
 20
196.8818305632652
 10
540.9471912261201
 20
197.14533198861469
 42
-0.0681604221069927
 10
542.3990524726222
 20
200.83281196272267
 10
543.1297713799169
 20
202.13549934709178
 42
-0.09766806608610931
 10
545.6756577520226
 20
205.12204348967913
 10
548.5988020868446
 20
207.43868649078962
 42
-0.08151924472836286
 10
552.0485278076038
 20
209.35693685142698
 10
553.891367822279
 20
210.01879557044802
 42
-0.13694083942982468
 10
557.73395371012
 20
210.29831849092443
 10
559.1216490832111
 20
210.0176353586885
 42
0.3087242470112463
 10
560.6237352299174
 20
210.6514850691861
 42
-0.2504589411042946
 10
562.1452755599055
 20
211.4973281872403
 10
562.7713928222656
 20
211.50769138336182
 42
-0.09363178584682673
 10
565.8957976019753
 20
210.97082182080302
 10
568.2932560166686
 20
210.0769186366359
 42
-0.06706946295367044
 10
571.4296112060547
 20
208.40069198608398
 42
-0.0835186718524994
 10
573.916685355134
 20
205.88350457284443
 10
575.8063673450345
 20
203.1954423167523
 42
-0.07620407707363687
 10
577.5638365158754
 20
199.6537013200179
 10
577.9114442458433
 20
198.5629153105363
 42
-0.07861664470103626
 10
578.508068720569
 20
194.6573645299587
 10
578.2308577562956
 20
142.54369926435913
 42
-0.29482339397544854
 10
576.9563293457031
 20
140.59291648864746
 10
576.7251575945573
 20
140.49004910970908
 42
0.26915278757811495
 10
575.5754852294922
 20
138.90085411071777
 10
575.5041008648805
 20
138.19249171270212
 42
-0.3059848463213307
 10
575.0565643310547
 20
137.65498161315918
 42
-0.07319104602207517
 10
574.2293897882013
 20
137.54137716418396
 10
544.699702162811
 20
137.82590634372383
 42
-0.15818485459142756
 10
542.0219497680664
 20
138.72341537475586
 42
-0.2328677165211054
 10
540.8012856663449
 20
141.09092894952616
 10
540.623291015625
 20
150.73184967041016
 10
540.6989288330078
 20
151.44399642944336
 10
540.4228813104224
 20
192.93871346025534
 42
-0.06148463145778006
  0
LWPOLYLINE
  5
38
330
17
100
AcDbEntity
  8
OVERLAY_FOAM_S24A Main Strut 4 S24A Orient_1_part9
 62
3
100
AcDbPolyline
 90
38
 70
1
 10
484.5718774556716
 20
196.9145036139111
 10
484.74214842323465
 20
197.75147863248782
 42
-0.12694545039843308
 10
486.4381055518359
 20
201.2335490966214
 10
490.87016776359377
 20
206.4341984009372
 42
-0.13283504485292943
 10
494.0550725244347
 20
208.6172958672695
 10
499.70395165581016
 20
210.59501409077419
 42
-0.14154043009912437
 10
500.7422332763672
 20
210.65275859832764
 42
-0.3872618986395674
 10
501.19807134893506
 20
209.9952289227046
 10
501.1147882356699
 20
209.37163292374188
 42
0.7438351937065287
 10
501.3660225708304
 20
209.25808713442746
 42
-0.4836939538835143
 10
501.9605192206347
 20
209.23046857383977
 10
502.091944265737
 20
209.04766940054802
 42
0.35596240897878967
 10
503.14629655017006
 20
208.76322692417878
 10
504.3142343047996
 20
209.28542231497673
 42
-0.194285551094786
 10
507.9907929854718
 20
209.42025538579796
 10
513.3020503176526
 20
207.49873631740508
 42
-0.10055673927544574
 10
516.6488396598398
 20
205.45796524301687
 10
517.8659308479727
 20
204.32863868459543
 42
-0.08855916866994916
 10
520.2368424004293
 20
201.18465628436672
 10
521.4531142646098
 20
198.78711018749607
 42
-0.11760593737245716
 10
522.3603341088976
 20
195.00349474115436
 10
522.4089660644531
 20
154.3657341003418
 10
523.0946197509766
 20
146.66375350952148
 10
522.6625594164461
 20
139.75971981299531
 42
-0.27198866067346633
 10
521.8685073852539
 20
138.58303833007812
 42
0.26653604842328044
 10
521.0577597343525
 20
137.40757221368332
 10
521.0372619628906
 20
137.16068649291992
 42
-0.3827567718373306
 10
519.8780992040375
 20
136.06587996658715
 10
488.8274776923956
 20
135.2662718815871
 42
-0.16858344071612658
 10
487.26182556152344
 20
135.76482582092285
 42
-0.19763701500186878
 10
486.4372710939329
 20
137.14588058712388
 10
486.41252971381647
 20
137.31182924176113
 42
0.24005285247051852
 10
485.33958110932224
 20
138.81732611047454
 10
485.2142493793438
 20
138.88264146710293
 42
-0.2677987667891908
 10
484.11739912215234
 20
140.60499696804922
 10
484.0100860595703
 20
143.05663299560547
 10
483.8660888671875
 20
144.0762481689453
 10
484.161100959553
 20
192.95468444570173
 42
-0.0487039029718518
  0
LWPOLYLINE
  5
39
330
17
100
AcDbEntity
  8
OVERLAY_FOAM_S24A Main Strut 4 S24A Orient_1_part10
 62
4
100
AcDbPolyline
 90
46
 70
1
 10
511.4956585913376
 20
309.03490361363663
 10
511.8278735131546
 20
310.89954462855087
 42
-0.08203832534417185
 10
513.1440814414542
 20
314.6201088741673
 10
514.3066326698739
 20
316.7293784305202
 42
-0.10491266915202503
 10
516.8654838940589
 20
319.6896331701201
 10
519.8299354174645
 20
321.9382659998018
 42
-0.06592589048785213
 10
523.276518643683
 20
323.8992116885238
 10
526.2548359516134
 20
325.10823158580246
 42
-0.2461086764895984
 10
527.3106536865234
 20
325.00548553466797
 42
0.2074965407705291
 10
528.3934595586823
 20
324.8191150939925
 10
529.8214353667217
 20
325.16665601239424
 42
-0.06933130599128817
 10
533.7632547145397
 20
325.5633415803971
 10
536.2313260992626
 20
325.46915476036554
 42
-0.07790643167076444
 10
539.9018096923828
 20
324.74937438964844
 42
-0.05272315253114113
 10
543.2846807540429
 20
323.09648753605984
 10
545.5957027957222
 20
321.64811263707685
 42
-0.06908703713120973
 10
548.031494140625
 20
319.6056442260742
 42
-0.05345577443295674
 10
549.9069087466148
 20
317.0239204092733
 10
550.8024375502556
 20
315.46501418025707
 42
-0.06955195562363797
 10
552.2812025783735
 20
311.78987753319893
 10
552.5716416599078
 20
310.62161386084404
 42
-0.07395321219580038
 10
552.9509990823924
 20
306.6833573452175
 10
551.5126693339591
 20
278.83766404384426
 10
551.2317535157446
 20
241.23632571875928
 42
-0.11421833338274956
 10
550.324666227005
 20
237.44638832378905
 10
547.9156790599162
 20
232.613018992626
 42
-0.0846836731938705
 10
545.6987686157227
 20
229.58099174499512
 42
-0.06279493868265472
 10
542.6780307662692
 20
227.30802478679865
 10
541.5971667982249
 20
226.68967305443508
 42
-0.0637693783262275
 10
537.9309445400713
 20
225.17288036658806
 10
536.5548647861006
 20
224.79956607506233
 42
-0.12310102873183582
 10
532.6750576390269
 20
224.7221824845666
 10
531.8155544545815
 20
224.91892604820785
 42
0.13332755657161097
 10
529.2719526712797
 20
224.81696290010896
 42
-0.15387550190093516
 10
526.7561902354818
 20
224.81746505846712
 10
526.1797790527344
 20
224.9992847442627
 42
-0.06871477996533244
 10
522.7367791072801
 20
226.63184594123467
 10
519.2751011536494
 20
228.89974568524877
 42
-0.07447918376411836
 10
516.323776463128
 20
231.53386246041782
 10
514.5085599626533
 20
233.71785796804897
 42
-0.11933474135721621
 10
512.7969346839296
 20
237.2084658198111
 10
512.5466474693907
 20
238.33644079639984
 42
-0.05084008970514793
 10
512.0830692224541
 20
242.28872182117502
 10
511.39414978027344
 20
287.7056121826172
 10
511.3655090332031
 20
288.6888427734375
 10
511.16886437790447
 20
305.06605449691114
 42
-0.047115365555308285
  0
LWPOLYLINE
  5
3A
330
17
100
AcDbEntity
  8
OVERLAY_FOAM_S24A Main Strut 4 S24A Orient_1_part11
 62
5
100
AcDbPolyline
 90
41
 70
1
 10
545.4956490878823
 20
105.0504983629694
 10
545.7357351894615
 20
105.77373564581966
 42
-0.07228816149334431
 10
547.5102102989804
 20
109.31213487727125
 10
548.5490853553165
 20
110.80118451970141
 42
-0.07583766601148027
 10
551.2748318954992
 20
113.6658689767229
 10
552.1268709853601
 20
114.3255861014021
 42
-0.07373628616384215
 10
555.5768932862567
 20
116.26288545673324
 10
559.5372370659738
 20
117.77371523348471
 42
-0.12714998684665893
 10
560.2802886962891
 20
117.85691452026367
 42
-0.2755558143850804
 10
560.7963590468962
 20
117.44026807434192
 10
561.2064609469468
 20
116.33000012755667
 42
0.4648723246898216
 10
562.5020298395054
 20
115.8619732499167
 42
-0.2003069126409676
 10
564.4579884031206
 20
116.11423040303082
 10
565.9903332929916
 20
115.6948876897502
 42
-0.06245916998476886
 10
569.6583772980085
 20
114.1790656696459
 10
570.5547269500383
 20
113.66984943045176
 42
-0.06308558262660388
 10
573.7314123648498
 20
111.29161931385984
 10
575.0546899300721
 20
110.01196192393313
 42
-0.07444718549420198
 10
577.4601475072575
 20
106.87070168373029
 42
-0.06784738643843392
 10
578.8912362673582
 20
103.17474855442244
 10
579.301909484595
 20
101.45142637233538
 42
-0.05651917220095609
 10
579.7817404098661
 20
97.50597081885442
 10
579.958280342087
 20
75.72099603905573
 42
0.051570437513623425
 10
580.3996242210355
 20
71.76676935319404
 10
580.7143894508395
 20
70.31983953352471
 42
-0.12806757077105016
 10
580.5574838062972
 20
66.45211402029999
 10
580.2464407542496
 20
65.42957695870392
 42
0.07871189759999965
 10
579.7022071968942
 20
61.516501210951056
 10
579.9229125976562
 20
49.843833923339844
 10
579.6902620016328
 20
46.341273796011855
 42
-0.08115256519206289
 10
579.1331939697266
 20
43.9434814453125
 42
-0.2994988394911347
 10
577.4118089075874
 20
42.76941265592369
 10
548.0872901589015
 20
42.283094962346524
 42
-0.38377544361105675
 10
546.1833343505859
 20
43.940574645996094
 10
546.0902142323805
 20
44.70251668422686
 42
0.134780371261773
 10
545.4086151123047
 20
46.36277770996094
 42
-0.1637438086482592
 10
544.8321911136517
 20
48.029879502259085
 10
544.7317962646484
 20
60.1409912109375
 10
544.6812744140625
 20
61.24742889404297
 10
544.2754516601562
 20
89.26847839355469
 10
544.7806128668501
 20
101.15415532836339
 42
-0.06962172560012789
  0
LWPOLYLINE
  5
3B
330
17
100
AcDbEntity
  8
OVERLAY_FOAM_S24A Main Strut 4 S24A Orient_1_part12
 62
6
100
AcDbPolyline
 90
35
 70
1
 10
484.95636776963676
 20
103.12753701563533
 10
485.0010449500898
 20
103.27189230565374
 42
-0.06990401627323824
 10
486.6872487887935
 20
106.85616492906657
 10
488.4492715969487
 20
109.54965782483968
 42
-0.08274607324240076
 10
491.1225996561844
 20
112.45156310843115
 10
493.08092207233125
 20
113.9753778095376
 42
-0.08716395842478117
 10
496.56189454747397
 20
115.82034182915805
 10
498.8297911587187
 20
116.55552597833318
 42
-0.3398437727766074
 10
501.32735443115234
 20
115.66722106933594
 10
501.8487302485367
 20
114.86071367395306
 42
0.2334794763817763
 10
502.9437789916992
 20
114.20702743530273
 42
0.25335376023715034
 10
504.08747154865864
 20
114.7134330254191
 10
504.31631694821283
 20
115.00970354875297
 42
-0.1933550679442001
 10
505.8263244628906
 20
115.89668273925781
 42
-0.13200263820331026
 10
507.63725209030247
 20
115.69047489673254
 10
512.9523959534661
 20
113.59296291075343
 42
-0.10237582289966242
 10
516.2290353643557
 20
111.44663934445687
 10
517.6265554559568
 20
110.05316229128532
 42
-0.09634961691907495
 10
519.8265028021741
 20
106.80093491476205
 10
521.5964860894275
 20
102.64508711892935
 42
-0.10220044504111644
 10
522.3706666598174
 20
98.80504578482713
 10
522.1804656982422
 20
58.78875732421875
 10
522.8052520751953
 20
49.77983856201172
 10
522.4169833956843
 20
45.897700067977084
 42
-0.29264526180381517
 10
521.275032043457
 20
44.45355987548828
 42
0.2702785780764572
 10
520.0434020472755
 20
43.02216084256795
 10
520.0101623535156
 20
42.842132568359375
 42
-0.36101316469619327
 10
518.5024220793789
 20
41.584215528015115
 10
489.5208987439187
 20
41.5144360952641
 42
-0.3273557476428904
 10
486.9150560405122
 20
43.41564994079057
 10
486.1635267231597
 20
45.7799982525688
 42
-0.07474127539799831
 10
485.53897984763563
 20
49.685940117638275
 10
485.2825469970703
 20
77.11309814453125
 10
485.28509521484375
 20
78.1439208984375
 10
484.44473854255
 20
99.21853760881278
 42
-0.08520497091230231
  0
LWPOLYLINE
  5
3C
330
17
100
AcDbEntity
  8
OVERLAY_FOAM_S24A Main Strut 4 S24A Orient_1_part13
 62
1
100
AcDbPolyline
 90
47
 70
1
 10
29.76522472036439
 20
333.6278192614056
 10
30.743045543307485
 20
334.9203679944538
 42
-0.09414329164537655
 10
33.6571484636825
 20
337.55678551141705
 10
52.11761485111493
 20
348.81609575472686
 42
-0.14411587262556685
 10
53.553802490234375
 20
349.20033264160156
 42
-0.26399239411171277
 10
54.70911456496257
 20
348.506151662675
 10
59.61688954619862
 20
339.804593799763
 42
-0.43087800034484053
 10
58.80463068922369
 20
337.18009283060974
 10
49.412944384018495
 20
332.5622930336481
 42
0.15510436056662744
 10
46.662287935386914
 20
329.9230301239306
 10
37.876617431640625
 20
313.77600860595703
 10
32.168853759765625
 20
298.2016296386719
 10
28.3148193359375
 20
282.31170654296875
 10
23.9686279296875
 20
248.6603546142578
 10
21.8990478515625
 20
213.03585624694824
 10
22.594573974609375
 20
187.7674388885498
 10
26.447845458984375
 20
158.4938793182373
 10
34.49609375
 20
119.60754013061523
 10
38.690185546875
 20
106.39154815673828
 10
45.216552734375
 20
91.27166748046875
 10
50.13978576660156
 20
82.38005828857422
 10
57.68001056221354
 20
71.81218106372073
 42
0.15313196993528264
 10
60.72497048521836
 20
69.51099856775481
 10
89.66778564453125
 20
59.16663360595703
 10
117.08314514160156
 20
44.295265197753906
 10
138.8268942127133
 20
35.14456730498897
 42
-0.3957882982368367
 10
140.0127100016972
 20
32.47998057289336
 10
134.62306270338092
 20
16.999328509137886
 42
-0.29701852348316143
 10
131.97200901531085
 20
14.948923038778139
 10
115.58309047199386
 20
13.620321345987486
 42
-0.09357666880028628
 10
111.67447990944227
 20
14.035084975719744
 10
91.85884094238281
 20
19.998634338378906
 10
51.89190673828125
 20
34.99781036376953
 10
48.94775570108202
 20
36.51440457334812
 42
-0.08729893910709542
 10
45.81117850487258
 20
38.8979907482937
 10
45.46352547461961
 20
39.27356381713599
 42
-0.12237867489847448
 10
43.59129993761844
 20
42.67420355641475
 10
34.441741943359375
 20
77.10708618164062
 10
21.691253662109375
 20
133.18255233764648
 10
16.10504150390625
 20
170.20669078826904
 10
13.993896484375
 20
199.99689865112305
 10
13.870208740234375
 20
206.26185607910156
 10
14.523834228515625
 20
237.36954879760742
 10
17.212860107421875
 20
271.6619415283203
 10
20.88812255859375
 20
298.46390533447266
 10
27.2119140625
 20
327.80431365966797
 10
27.951675820114787
 20
330.1271250097003
 42
-0.08503689675078241
  0
LWPOLYLINE
  5
3D
330
17
100
AcDbEntity
  8
OVERLAY_FOAM_S24A Main Strut 4 S24A Orient_1_part14
 62
2
100
AcDbPolyline
 90
181
 70
1
 10
52.56757354736328
 20
258.9640121459961
 10
52.613539175360145
 20
260.0297873631202
 42
-0.3589927150847172
 10
53.392364501953125
 20
260.8958206176758
 42
0.32368079764733204
 10
54.26605430108077
 20
261.75172656431863
 10
54.39575958251953
 20
262.5091361999512
 42
-0.10202801241673917
 10
55.48283816243224
 20
265.28748791235637
 10
58.58086647991703
 20
270.05438571945945
 42
0.05648747167566509
 10
60.35764967942815
 20
273.6096810753972
 10
60.87950582301399
 20
275.036662283272
 42
-0.17415659909706416
 10
62.15012794916228
 20
276.5591964804866
 42
0.10347715558292753
 10
63.677777985171936
 20
277.94488845397245
 10
63.9299085394555
 20
278.2922467185805
 42
0.07699679486715214
 10
65.26804239763833
 20
280.8995238192174
 10
65.67870773779737
 20
282.136734909457
 42
-0.18532487942848067
 10
67.02832984490348
 20
283.7820799878549
 10
67.09674064637525
 20
283.8210069948832
 42
0.1293800469962703
 10
68.56332646454267
 20
285.25642353605167
 42
0.14428361399097275
 10
69.0712826345518
 20
287.2274903649002
 10
69.06465784976129
 20
287.4201572484687
 42
-0.21943869141669523
 10
69.9214575819395
 20
289.4599818597095
 10
70.08641930180981
 20
289.6109422014773
 42
0.156349438001169
 10
71.02677374404888
 20
291.25520891049075
 10
71.03115824980662
 20
291.27584922415133
 42
-0.18233919941839832
 10
72.01419684508244
 20
292.809429367585
 10
72.06623382173365
 20
292.8481773910305
 42
0.23027812498631525
 10
72.81805274107853
 20
294.2990839086006
 42
-0.14733107045040197
 10
73.36202417134575
 20
295.9517904567345
 10
86.53340148925781
 20
314.7759323120117
 10
93.01825483542079
 20
325.96095172500327
 42
0.19707855459255813
 10
93.52094169837619
 20
329.62755069994705
 10
93.14527070187458
 20
331.08107682090105
 42
-0.10488233855769538
 10
92.97347003420957
 20
334.9902585763912
 10
93.33770624581929
 20
337.17659057554323
 42
0.41544875535110476
 10
91.6921923116226
 20
339.4697458321334
 10
84.59416959785013
 20
340.6215248336655
 42
-0.21214992095637453
 10
83.7259521484375
 20
341.18907165527344
 42
-0.17252912365585732
 10
83.48003185771921
 20
342.2298246925889
 10
83.59770082295267
 20
343.2985581358678
 42
-0.29356091135434964
 10
85.33010864257812
 20
345.4376449584961
 42
-0.11943360103144948
 10
88.49938826907503
 20
345.69568456367693
 10
94.23346789702195
 20
344.79089495063755
 42
0.24691356853602686
 10
96.28680360042648
 20
345.48880829776283
 42
-0.14552863236029018
 10
98.32179980464421
 20
346.6614316105024
 10
98.96821594238281
 20
346.8153305053711
 42
-0.19315968927523752
 10
102.43733272137742
 20
346.29850741065366
 10
105.30379195321234
 20
344.6208859547945
 42
0.09931385445406347
 10
109.01209126199863
 20
343.34435188767196
 10
111.77058741593378
 20
342.9737400994446
 42
0.4018755935436505
 10
114.10268841304656
 20
344.6765799337153
 10
114.92509247718573
 20
349.304726808765
 42
-0.3104665260864885
 10
116.8642349243164
 20
351.27307891845703
 10
117.44859417102633
 20
351.38595421830547
 42
-0.36456319207640764
 10
118.89424133300781
 20
350.5804138183594
 42
-0.09942398389755226
 10
119.24255557761943
 20
348.48929680309567
 10
119.19872553351492
 20
347.16734618954956
 42
0.3383000847694154
 10
121.04366437273828
 20
344.5791546497951
 10
121.70387998150083
 20
344.3755884915393
 42
-0.3171190902528714
 10
123.67459869384766
 20
341.8233947753906
 10
123.71874601258055
 20
340.80593476198834
 42
-0.22258153713762976
 10
123.05413793954558
 20
339.2102866389257
 42
0.3461565045539899
 10
122.80595909522624
 20
337.73071099650787
 10
122.8584134522409
 20
337.63476326246087
 42
-0.2172431730438825
 10
122.99855973888515
 20
335.70417627919517
 10
122.85804748535156
 20
335.32556915283203
 42
-0.30017393430028133
 10
120.88163391723887
 20
333.8778951161323
 10
119.95393743253419
 20
333.8324407317271
 42
0.3533633500211949
 10
117.63144683582145
 20
331.7611283675054
 10
117.34271251050791
 20
330.00729199917447
 42
-0.3146189055979983
 10
116.0948257446289
 20
328.72754669189453
 10
116.08029522726562
 20
328.7247766868175
 42
-0.14655945905340767
 10
114.03099060058594
 20
328.93592834472656
 42
-0.3124801524832312
 10
113.07493734211506
 20
330.4231060415041
 10
113.23987604498407
 20
335.21718289166773
 42
0.3848621155249516
 10
111.32701270084056
 20
337.4864341975563
 10
107.06857192763812
 20
338.0675849334081
 42
0.19936676650381624
 10
103.49660662144254
 20
337.12523692248544
 10
102.08009730787174
 20
336.0450124515722
 42
0.2277543232059657
 10
100.98023521232402
 20
333.88734214569496
 42
-0.1373268064657944
 10
100.22429779126496
 20
331.41287729673564
 10
92.86921691894531
 20
319.92369842529297
 10
83.51793561875557
 20
301.208082534054
 42
0.05487135008855793
 10
82.39726764653392
 20
298.1732453750208
 42
0.7213627935501778
 10
83.26443128943124
 20
297.62344618004573
 10
94.56796264648438
 20
306.85389709472656
 10
102.0619221305782
 20
311.46773934487067
 42
-0.19576110068503683
 10
103.4033203125
 20
311.69142150878906
 10
103.47086389882456
 20
311.6762181222382
 42
-0.2087936627932332
 10
104.45342254638672
 20
310.95518493652344
 42
-0.17096782882682454
 10
104.68709173113385
 20
309.7228396441781
 10
104.54381561279297
 20
308.7829360961914
 42
0.17517817865409072
 10
105.13434372046355
 20
305.8019234469453
 10
105.45781594989597
 20
305.26521731923384
 42
0.3464039673941894
 10
108.39761269725689
 20
304.1537686536159
 10
114.421630859375
 20
306.0534210205078
 10
123.73677062988281
 20
307.4464569091797
 10
132.63682556152344
 20
308.091796875
 10
145.7082977294922
 20
307.09754943847656
 10
158.67861938476562
 20
304.2448272705078
 10
171.4305648803711
 20
299.3719253540039
 10
189.30130767822266
 20
290.399169921875
 10
204.8298568725586
 20
280.8616409301758
 10
218.9639663696289
 20
270.08160400390625
 10
229.76067352294922
 20
259.88390350341797
 10
239.57207489013672
 20
248.89202880859375
 10
243.72156807056916
 20
242.5635255710018
 42
-0.059195513726013324
 10
245.49245419305242
 20
239.008070208297
 10
248.86422729492188
 20
229.59178924560547
 10
252.68024826049805
 20
213.7966480255127
 10
255.07611300215882
 20
198.9165222505707
 42
0.06410211704635156
 10
255.9100570678711
 20
196.09797286987305
 10
256.27940354564555
 20
195.2612564681158
 42
-0.09991956408826498
 10
256.5182857513428
 20
194.17527675628662
 10
256.52173235468604
 20
193.97656506942764
 42
-0.38225964305905497
 10
256.16267681351945
 20
193.5612696828527
 42
0.4355606613380903
 10
255.87042603490255
 20
193.15326240705232
 10
256.7088538488631
 20
189.01693127574563
 42
-0.07657228563594354
 10
256.8951565869474
 20
185.0679565763923
 10
256.6257095336914
 20
182.52838039398193
 10
253.21129685898939
 20
165.55333475106778
 42
0.05887353473097286
 10
252.89034968609718
 20
161.59395440022527
 10
252.89486759905907
 20
161.47100035746516
 42
-0.08014950418489239
 10
252.40947527466304
 20
157.5520089497778
 10
251.68032269896977
 20
155.04638925884038
 42
-0.06576538491526779
 10
250.08316811756742
 20
151.41669633538373
 10
234.66685104370117
 20
126.03736877441406
 10
225.25573681540314
 20
114.62926374405441
 42
-0.0583532388613442
 10
222.3882840331102
 20
111.87948835560478
 10
208.20925777597182
 20
101.14793931773507
 42
-0.06045830795552114
 10
204.77737636197426
 20
99.15045151297554
 10
202.90768204764998
 20
98.34595056316476
 42
-0.495822511091431
 10
202.42156600952148
 20
98.62059020996094
 42
-0.28961306967061423
 10
202.74504217956255
 20
99.3299036999036
 10
209.69771675708324
 20
103.87642617016506
 42
0.13501328362458268
 10
211.5887794494629
 20
106.01840209960938
 10
212.03235656374872
 20
106.9253948283377
 42
0.42124384563456946
 10
211.81084823608398
 20
107.54662704467773
 42
0.25948593225614375
 10
210.9882987056664
 20
107.48328458318863
 10
199.60582294467198
 20
99.95031379514886
 42
0.10632298246937916
 10
198.0990104675293
 20
98.40973281860352
 42
-0.12741317472271865
 10
196.54481793721084
 20
96.94765546610357
 10
193.72745767788976
 20
95.40337148738394
 42
0.15981199228442544
 10
193.17304229736328
 20
94.8111572265625
 42
0.5932150684495001
 10
193.41592978974774
 20
94.48173363421019
 10
195.55961603896716
 20
94.77369971999815
 42
-0.6780497240278156
 10
195.85013580322266
 20
94.25973510742188
 42
-0.14627515071096397
 10
194.59137354496386
 20
93.39282807951018
 10
192.75563713577773
 20
92.79950347422275
 42
-0.8291481203146928
 10
192.53100520830597
 20
93.21178621226161
 42
0.808581381315975
 10
192.2886449871871
 20
93.68391697701908
 10
192.0991280720755
 20
93.63281816416591
 42
0.04451892863497248
 10
189.36208454805296
 20
92.62644587382239
 10
186.72526901876782
 20
91.38082323144283
 42
0.8732879376212939
 10
186.88655471801758
 20
90.87073516845703
 42
-0.8716126057102556
 10
187.0510816914091
 20
90.35381942855359
 10
184.6406707763672
 20
89.20391082763672
 10
179.24898756775667
 20
87.59754119750662
 42
-0.8831206204338771
 10
179.1677474975586
 20
87.78266525268555
 42
0.7825068684109349
 10
179.05357531985067
 20
88.15882960957283
 10
178.79580829913783
 20
88.145452471906
 42
0.07361613819541367
 10
176.70980397716102
 20
87.7251672299959
 10
164.87739330807923
 20
83.46244528479592
 42
-0.11028731543054666
 10
161.00452592443003
 20
82.97148234913986
 10
153.8147735595703
 20
83.6463394165039
 10
149.36600885236993
 20
83.384611132043
 42
-0.08571337349106722
 10
145.44915866109037
 20
83.82611304076714
 10
120.55403137207031
 20
91.07259368896484
 10
107.77835083007812
 20
96.38053894042969
 10
91.66543579101562
 20
106.40784454345703
 10
75.88395690917969
 20
119.8291015625
 10
64.09193420410156
 20
132.124267578125
 10
58.81834411621094
 20
138.64966201782227
 10
51.63743591308594
 20
149.57196426391602
 10
46.140655517578125
 20
159.48753356933594
 10
41.54884338378906
 20
170.33920288085938
 10
38.577606201171875
 20
181.76110304892063
 10
38.169952392578125
 20
186.26021718978882
 10
39.240936279296875
 20
206.2322654724121
 10
39.455474853515625
 20
207.8390350341797
 10
42.954345703125
 20
226.15257263183594
 10
46.76570129394531
 20
240.34835052490234
 10
51.90158798024986
 20
255.42017501255006
 42
0.07145076623105467
  0
LWPOLYLINE
  5
3E
330
17
100
AcDbEntity
  8
OVERLAY_FOAM_S24A Main Strut 4 S24A Orient_1_part15
 62
3
100
AcDbPolyline
 90
16
 70
1
 10
138.92938995361328
 20
349.3540573120117
 42
-0.23770740415326733
 10
139.7637181628453
 20
349.77187662686293
 10
244.84079412680006
 20
349.51164437295483
 42
-0.19326072794511565
 10
246.9570484161377
 20
348.6558380126953
 42
-0.2033369154064344
 10
247.84617242757162
 20
346.57313914069397
 10
247.88068771362305
 20
331.4534683227539
 10
247.75275821124598
 20
322.0678946176646
 42
-0.2008199555444426
 10
247.05126571655273
 20
320.4538879394531
 42
-0.1933416984646129
 10
245.40888838918204
 20
319.7932104906449
 10
145.9563446044922
 20
319.7444381713867
 10
140.42571415270427
 20
319.99038957580353
 42
-0.34453651814330055
 10
139.05876922607422
 20
321.1606674194336
 10
138.8666475104331
 20
322.1125511535451
 42
-0.051504581044023376
 10
138.8339517507278
 20
322.4512353131962
 10
138.8350940532134
 20
322.6222658534432
 10
138.62181295631143
 20
348.41252948296454
 42
-0.1634419823732787
  0
LWPOLYLINE
  5
3F
330
17
100
AcDbEntity
  8
OVERLAY_FOAM_S24A Main Strut 4 S24A Orient_1_part16
 62
4
100
AcDbPolyline
 90
27
 70
1
 10
162.18337113071095
 20
48.8440536604145
 10
191.27924346923828
 20
38.79460906982422
 10
200.0983030225187
 20
35.097470437059016
 42
0.1077237746838088
 10
203.94173802837034
 20
34.388762925882496
 10
206.07778930664062
 20
34.457725524902344
 10
269.4395694732666
 20
45.877098083496094
 10
290.889856338501
 20
52.58289337158203
 10
311.05762017754853
 20
61.78793337450647
 42
-0.3997902360058194
 10
313.79649862318007
 20
60.84223956651342
 10
319.56390634508165
 20
49.70097332411158
 42
-0.30601939671596146
 10
319.1793658748295
 20
46.408383699875095
 10
297.7028286457062
 20
21.432228088378906
 10
295.82024022937907
 20
19.817877867784933
 42
-0.08694973741811597
 10
292.4315662493962
 20
17.807836515434346
 10
288.5162682423335
 20
16.325540559760967
 42
-0.08391188588386474
 10
284.64655906016435
 20
15.563311325601237
 10
253.25071334838867
 20
14.713783264160156
 10
183.1867362692206
 20
15.264707812756232
 42
-0.06642369141135986
 10
179.2609560052522
 20
15.820000372298106
 10
177.80431346496263
 20
16.22811058961596
 42
-0.06287637426176479
 10
174.1471651556316
 20
17.76896586517149
 10
158.0641561163864
 20
27.07045901195181
 42
-0.07015683932908766
 10
155.37998962402344
 20
29.172760009765625
 10
154.94009157327795
 20
29.62980340765324
 42
-0.27552050482628565
 10
154.51688385009766
 20
31.448867797851562
 10
154.84764099121094
 20
32.484580993652344
 10
159.68326565932875
 20
47.59218174099941
 42
-0.4209039137868343
  0
LWPOLYLINE
  5
40
330
17
100
AcDbEntity
  8
OVERLAY_FOAM_S24A Main Strut 4 S24A Orient_1_part17
 62
5
100
AcDbPolyline
 90
22
 70
1
 10
213.2150435583599
 20
87.43943909029727
 10
216.6192536218159
 20
89.56071349759335
 42
-0.10919589376534612
 10
220.30176010670792
 20
90.86221436739748
 10
231.92867279052734
 20
92.29008483886719
 10
261.75141267062844
 20
93.6324711927894
 42
-0.09070819885357129
 10
265.6498261381231
 20
93.09923423945908
 10
273.0191402435303
 20
90.68276977539062
 10
287.88012953594375
 20
84.44355618392383
 42
-0.13435754349742463
 10
289.4879238605499
 20
83.18383026123047
 42
-0.17177432010508567
 10
290.075652899872
 20
81.27607083703536
 10
289.5755609281333
 20
69.1981016449012
 42
-0.3912904839354287
 10
287.4942281916954
 20
67.12480770389325
 10
265.07516174292937
 20
66.28343200074595
 10
247.6534818807557
 20
63.81581655107799
 10
227.7265625
 20
58.74622344970703
 10
206.30643450688328
 20
50.39660565678929
 42
-0.38796978295192525
 10
203.55132486991232
 20
51.46046205326856
 10
196.21654533171613
 20
66.18657807609402
 42
-0.23207793347316222
 10
196.1995675365555
 20
69.00296424422076
 42
-0.0719493162993833
 10
197.93649453063892
 20
71.57643732875864
 10
199.5371216356964
 20
73.33875152421227
 10
210.16467517952483
 20
84.90878913015608
 42
-0.06774740061942737
  0
LWPOLYLINE
  5
41
330
17
100
AcDbEntity
  8
OVERLAY_FOAM_S24A Main Strut 4 S24A Orient_1_part18
 62
6
100
AcDbPolyline
 90
22
 70
1
 10
296.98446616025586
 20
134.94484983993783
 10
317.1678564002929
 20
132.01856339858756
 42
-0.07140376079185867
 10
320.9658320174841
 20
130.89946579643708
 10
323.0760465087733
 20
129.9339422768972
 42
-0.07061330821924693
 10
326.05291748046875
 20
128.0254192352295
 42
-0.04816169382580043
 10
328.51093535551723
 20
125.4570609193081
 10
344.3218688964844
 20
105.38497161865234
 10
352.65010644941333
 20
93.06559870677754
 42
-0.0954823656106059
 10
354.19433748712515
 20
89.454177193519
 10
359.1833570771271
 20
66.46255503066332
 42
-0.160399052300339
 10
359.0191230773926
 20
64.89527893066406
 42
-0.13420185640194637
 10
358.00127630570404
 20
63.66028442954576
 10
356.5329475402832
 20
62.623779296875
 10
347.253215920678
 20
57.379348880330646
 42
-0.38666170963352
 10
344.36732934492136
 20
58.035336714002796
 10
333.32464599609375
 20
73.8560562133789
 10
319.4306297302246
 20
89.68196105957031
 10
301.24941558403475
 20
105.46903505171653
 10
283.97292613983154
 20
117.26590728759766
 10
283.9725890509464
 20
117.29501246035888
 10
291.21386528015137
 20
130.31382369995117
 10
293.78407647082236
 20
133.64785185989848
 42
-0.27085460204753825
  0
ENDSEC
  0
SECTION
  2
OBJECTS
  0
DICTIONARY
  5
A
330
0
100
AcDbDictionary
281
1
  3
ACAD_COLOR
350
B
  3
ACAD_GROUP
350
C
  3
ACAD_LAYOUT
350
D
  3
ACAD_MATERIAL
350
E
  3
ACAD_MLEADERSTYLE
350
F
  3
ACAD_MLINESTYLE
350
10
  3
ACAD_PLOTSETTINGS
350
11
  3
ACAD_PLOTSTYLENAME
350
12
  3
ACAD_SCALELIST
350
14
  3
ACAD_TABLESTYLE
350
15
  3
ACAD_VISUALSTYLE
350
16
  3
EZDXF_META
350
2D
  0
DICTIONARY
  5
B
330
A
100
AcDbDictionary
281
1
  0
DICTIONARY
  5
C
330
A
100
AcDbDictionary
281
1
  0
DICTIONARY
  5
D
330
A
100
AcDbDictionary
281
1
  3
Model
350
1A
  3
Layout1
350
1E
  0
DICTIONARY
  5
E
330
A
100
AcDbDictionary
281
1
  3
ByBlock
350
1F
  3
ByLayer
350
20
  3
Global
350
21
  0
DICTIONARY
  5
F
330
A
100
AcDbDictionary
281
1
  3
Standard
350
2C
  0
DICTIONARY
  5
10
330
A
100
AcDbDictionary
281
1
  3
Standard
350
22
  0
DICTIONARY
  5
11
330
A
100
AcDbDictionary
281
1
  0
ACDBDICTIONARYWDFLT
  5
12
330
A
100
AcDbDictionary
281
1
  3
Normal
350
13
100
AcDbDictionaryWithDefault
340
13
  0
ACDBPLACEHOLDER
  5
13
330
12
  0
DICTIONARY
  5
14
330
A
100
AcDbDictionary
281
1
  0
DICTIONARY
  5
15
330
A
100
AcDbDictionary
281
1
  0
DICTIONARY
  5
16
330
A
100
AcDbDictionary
281
1
  0
LAYOUT
  5
1A
330
D
100
AcDbPlotSettings
  1

  4
A3
  6

 40
7.5
 41
20.0
 42
7.5
 43
20.0
 44
420.0
 45
297.0
 46
0.0
 47
0.0
 48
0.0
 49
0.0
140
0.0
141
0.0
142
1.0
143
1.0
 70
1024
 72
1
 73
0
 74
5
  7

 75
16
 76
0
 77
2
 78
300
147
1.0
148
0.0
149
0.0
100
AcDbLayout
  1
Model
 70
1
 71
0
 10
0.0
 20
0.0
 11
420.0
 21
297.0
 12
0.0
 22
0.0
 32
0.0
 14
1e+20
 24
1e+20
 34
1e+20
 15
-1e+20
 25
-1e+20
 35
-1e+20
146
0.0
 13
0.0
 23
0.0
 33
0.0
 16
1.0
 26
0.0
 36
0.0
 17
0.0
 27
1.0
 37
0.0
 76
1
330
17
  0
LAYOUT
  5
1E
330
D
100
AcDbPlotSettings
  1

  4
A3
  6

 40
7.5
 41
20.0
 42
7.5
 43
20.0
 44
420.0
 45
297.0
 46
0.0
 47
0.0
 48
0.0
 49
0.0
140
0.0
141
0.0
142
1.0
143
1.0
 70
0
 72
1
 73
0
 74
5
  7

 75
16
 76
0
 77
2
 78
300
147
1.0
148
0.0
149
0.0
100
AcDbLayout
  1
Layout1
 70
1
 71
1
 10
0.0
 20
0.0
 11
420.0
 21
297.0
 12
0.0
 22
0.0
 32
0.0
 14
1e+20
 24
1e+20
 34
1e+20
 15
-1e+20
 25
-1e+20
 35
-1e+20
146
0.0
 13
0.0
 23
0.0
 33
0.0
 16
1.0
 26
0.0
 36
0.0
 17
0.0
 27
1.0
 37
0.0
 76
1
330
1B
  0
MATERIAL
  5
1F
102
{ACAD_REACTORS
330
E
102
}
330
E
100
AcDbMaterial
  1
ByBlock
  2

 70
0
 40
1.0
 71
1
 41
1.0
 91
-1023410177
 42
1.0
 72
1
  3

 73
1
 74
1
 75
1
 44
0.5
 73
0
 45
1.0
 46
1.0
 77
1
  4

 78
1
 79
1
170
1
 48
1.0
171
1
  6

172
1
173
1
174
1
140
1.0
141
1.0
175
1
  7

176
1
177
1
178
1
143
1.0
179
1
  8

270
1
271
1
272
1
145
1.0
146
1.0
273
1
  9

274
1
275
1
276
1
 42
1.0
 72
1
  3

 73
1
 74
1
 75
1
 94
63
  0
MATERIAL
  5
20
102
{ACAD_REACTORS
330
E
102
}
330
E
100
AcDbMaterial
  1
ByLayer
  2

 70
0
 40
1.0
 71
1
 41
1.0
 91
-1023410177
 42
1.0
 72
1
  3

 73
1
 74
1
 75
1
 44
0.5
 73
0
 45
1.0
 46
1.0
 77
1
  4

 78
1
 79
1
170
1
 48
1.0
171
1
  6

172
1
173
1
174
1
140
1.0
141
1.0
175
1
  7

176
1
177
1
178
1
143
1.0
179
1
  8

270
1
271
1
272
1
145
1.0
146
1.0
273
1
  9

274
1
275
1
276
1
 42
1.0
 72
1
  3

 73
1
 74
1
 75
1
 94
63
  0
MATERIAL
  5
21
102
{ACAD_REACTORS
330
E
102
}
330
E
100
AcDbMaterial
  1
Global
  2

 70
0
 40
1.0
 71
1
 41
1.0
 91
-1023410177
 42
1.0
 72
1
  3

 73
1
 74
1
 75
1
 44
0.5
 73
0
 45
1.0
 46
1.0
 77
1
  4

 78
1
 79
1
170
1
 48
1.0
171
1
  6

172
1
173
1
174
1
140
1.0
141
1.0
175
1
  7

176
1
177
1
178
1
143
1.0
179
1
  8

270
1
271
1
272
1
145
1.0
146
1.0
273
1
  9

274
1
275
1
276
1
 42
1.0
 72
1
  3

 73
1
 74
1
 75
1
 94
63
  0
MLINESTYLE
  5
22
102
{ACAD_REACTORS
330
10
102
}
330
10
100
AcDbMlineStyle
  2
Standard
 70
0
  3

 62
256
 51
90.0
 52
90.0
 71
2
 49
0.5
 62
256
  6
BYLAYER
 49
-0.5
 62
256
  6
BYLAYER
  0
MLEADERSTYLE
  5
2C
102
{ACAD_REACTORS
330
F
102
}
330
F
100
AcDbMLeaderStyle
179
2
170
2
171
1
172
0
 90
2
 40
0.0
 41
0.0
173
1
 91
-1056964608
 92
-2
290
1
 42
2.0
291
1
 43
8.0
  3
Standard
 44
4.0
300

342
29
174
1
175
1
176
0
178
1
 93
-1056964608
 45
4.0
292
0
297
0
 46
4.0
 94
-1056964608
 47
1.0
 49
1.0
140
1.0
294
1
141
0.0
177
0
142
1.0
295
0
296
0
143
3.75
271
0
272
9
273
9
  0
DICTIONARY
  5
2D
330
A
100
AcDbDictionary
280
1
281
1
  3
CREATED_BY_EZDXF
350
2E
  3
WRITTEN_BY_EZDXF
350
44
  0
DICTIONARYVAR
  5
2E
330
2D
100
DictionaryVariables
280
0
  1
1.4.3 @ 2026-01-31T19:55:46.480164+00:00
  0
DICTIONARYVAR
  5
44
330
2D
100
DictionaryVariables
280
0
  1
1.4.3 @ 2026-01-31T19:55:46.545959+00:00
  0
ENDSEC
  0
EOF
